ISO-10303-21;
HEADER;
FILE_DESCRIPTION (( 'STEP AP214' ),
    '1' );
FILE_NAME ('T101-008.STEP',
    '2025-02-11T15:56:05',
    ( '' ),
    ( '' ),
    'SwSTEP 2.0',
    'SolidWorks 2024',
    '' );
FILE_SCHEMA (( 'AUTOMOTIVE_DESIGN' ));
ENDSEC;

DATA;
#1 = VERTEX_POINT ( 'NONE', #181 ) ;
#2 = EDGE_CURVE ( 'NONE', #159, #96, #236, .T. ) ;
#3 = CARTESIAN_POINT ( 'NONE',  ( 17.50000000000000000, -6.123031769111859174E-17, 1.000000000000000000 ) ) ;
#4 = DIRECTION ( 'NONE',  ( 0.000000000000000000, 6.123031769111888756E-17, -1.000000000000000000 ) ) ;
#5 = VERTEX_POINT ( 'NONE', #262 ) ;
#6 = PRODUCT_DEFINITION_CONTEXT ( 'detailed design', #294, 'design' ) ;
#7 = AXIS2_PLACEMENT_3D ( 'NONE', #107, #208, #187 ) ;
#8 = DIRECTION ( 'NONE',  ( 0.000000000000000000, 6.123031769111888756E-17, -1.000000000000000000 ) ) ;
#9 =( NAMED_UNIT ( * ) PLANE_ANGLE_UNIT ( ) SI_UNIT ( $, .RADIAN. ) );
#10 = FACE_BOUND ( 'NONE', #198, .T. ) ;
#11 = DIRECTION ( 'NONE',  ( 0.000000000000000000, 1.000000000000000000, 6.123031769111888756E-17 ) ) ;
#12 = VECTOR ( 'NONE', #169, 1000.000000000000000 ) ;
#13 = DIRECTION ( 'NONE',  ( 0.000000000000000000, 1.000000000000000000, 6.123031769111888756E-17 ) ) ;
#14 = CARTESIAN_POINT ( 'NONE',  ( -17.50000000000000000, 6.123031769111889989E-17, -1.000000000000000000 ) ) ;
#15 = CARTESIAN_POINT ( 'NONE',  ( 12.50000000000000000, 6.000000000000000000, -9.500000000000000000 ) ) ;
#16 = ADVANCED_FACE ( 'NONE', ( #60, #10 ), #106, .T. ) ;
#17 = PRODUCT_RELATED_PRODUCT_CATEGORY ( 'part', '', ( #157 ) ) ;
#18 = DIRECTION ( 'NONE',  ( 0.000000000000000000, -1.000000000000000000, -6.123031769111888756E-17 ) ) ;
#19 = MECHANICAL_DESIGN_GEOMETRIC_PRESENTATION_REPRESENTATION (  '', ( #226 ), #136 ) ;
#20 = DIRECTION ( 'NONE',  ( -1.253898945459000212E-15, -6.123031769111888756E-17, 1.000000000000000000 ) ) ;
#21 = ORIENTED_EDGE ( 'NONE', *, *, #2, .F. ) ;
#22 = VECTOR ( 'NONE', #164, 1000.000000000000000 ) ;
#23 = ORIENTED_EDGE ( 'NONE', *, *, #323, .T. ) ;
#24 = DIRECTION ( 'NONE',  ( 0.000000000000000000, 1.000000000000000000, 6.123031769111888756E-17 ) ) ;
#25 = ORIENTED_EDGE ( 'NONE', *, *, #45, .T. ) ;
#26 = DIRECTION ( 'NONE',  ( 0.000000000000000000, 0.000000000000000000, -1.000000000000000000 ) ) ;
#27 = EDGE_CURVE ( 'NONE', #151, #315, #277, .T. ) ;
#28 = ADVANCED_FACE ( 'NONE', ( #109 ), #248, .T. ) ;
#29 = ORIENTED_EDGE ( 'NONE', *, *, #52, .T. ) ;
#30 = CYLINDRICAL_SURFACE ( 'NONE', #97, 14.54061261317760056 ) ;
#31 = ORIENTED_EDGE ( 'NONE', *, *, #301, .F. ) ;
#32 = DIRECTION ( 'NONE',  ( 0.000000000000000000, -1.000000000000000000, -6.123031769111888756E-17 ) ) ;
#33 = CARTESIAN_POINT ( 'NONE',  ( -1.110223024625159893E-15, 6.000000000000000000, -1.408974933253540048E-15 ) ) ;
#34 = EDGE_LOOP ( 'NONE', ( #211, #132 ) ) ;
#35 = CARTESIAN_POINT ( 'NONE',  ( 0.000000000000000000, 0.000000000000000000, 0.000000000000000000 ) ) ;
#36 = AXIS2_PLACEMENT_3D ( 'NONE', #117, #13, #116 ) ;
#37 = VECTOR ( 'NONE', #250, 1000.000000000000000 ) ;
#38 = EDGE_LOOP ( 'NONE', ( #326, #238, #104, #85 ) ) ;
#39 = CARTESIAN_POINT ( 'NONE',  ( -17.50000000000000000, 6.123031769111889989E-17, -1.000000000000000000 ) ) ;
#40 = LINE ( 'NONE', #14, #217 ) ;
#41 = AXIS2_PLACEMENT_3D ( 'NONE', #241, #32, #210 ) ;
#42 = CARTESIAN_POINT ( 'NONE',  ( 17.50000000000000000, 6.000000000000000000, 9.500000000000000000 ) ) ;
#43 = MANIFOLD_SOLID_BREP ( 'Boss-Extrude1', #317 ) ;
#44 = CARTESIAN_POINT ( 'NONE',  ( -12.50000000000000000, -5.816880180656290004E-16, 9.500000000000000000 ) ) ;
#45 = EDGE_CURVE ( 'NONE', #273, #1, #89, .T. ) ;
#46 = FACE_OUTER_BOUND ( 'NONE', #38, .T. ) ;
#47 = AXIS2_PLACEMENT_3D ( 'NONE', #158, #86, #288 ) ;
#48 = EDGE_LOOP ( 'NONE', ( #125, #289, #306, #78 ) ) ;
#49 = CIRCLE ( 'NONE', #168, 4.000000000000000000 ) ;
#50 = DIRECTION ( 'NONE',  ( -1.000000000000000000, 0.000000000000000000, 0.000000000000000000 ) ) ;
#51 = EDGE_CURVE ( 'NONE', #112, #159, #40, .T. ) ;
#52 = EDGE_CURVE ( 'NONE', #112, #56, #252, .T. ) ;
#53 = DIRECTION ( 'NONE',  ( -0.000000000000000000, -1.000000000000000000, -6.123031769111888756E-17 ) ) ;
#54 = EDGE_LOOP ( 'NONE', ( #176, #100, #23, #207 ) ) ;
#55 = DIRECTION ( 'NONE',  ( 0.000000000000000000, 1.000000000000000000, 6.123031769111888756E-17 ) ) ;
#56 = VERTEX_POINT ( 'NONE', #44 ) ;
#57 = VECTOR ( 'NONE', #4, 1000.000000000000000 ) ;
#58 = DIRECTION ( 'NONE',  ( 0.000000000000000000, 1.000000000000000000, 6.123031769111888756E-17 ) ) ;
#59 = ORIENTED_EDGE ( 'NONE', *, *, #75, .F. ) ;
#60 = FACE_OUTER_BOUND ( 'NONE', #310, .T. ) ;
#61 = VERTEX_POINT ( 'NONE', #90 ) ;
#62 = PRODUCT_CONTEXT ( 'NONE', #185, 'mechanical' ) ;
#63 = VECTOR ( 'NONE', #296, 1000.000000000000000 ) ;
#64 = CARTESIAN_POINT ( 'NONE',  ( -1.836909530733570325E-16, 0.000000000000000000, 0.000000000000000000 ) ) ;
#65 = EDGE_CURVE ( 'NONE', #153, #56, #214, .T. ) ;
#66 = DIRECTION ( 'NONE',  ( 0.000000000000000000, -1.000000000000000000, -6.123031769111888756E-17 ) ) ;
#67 = PRESENTATION_LAYER_ASSIGNMENT (  '', '', ( #226 ) ) ;
#68 = CARTESIAN_POINT ( 'NONE',  ( -17.50000000000000000, 5.816880180656290004E-16, -9.500000000000000000 ) ) ;
#69 = DIRECTION ( 'NONE',  ( -1.000000000000000000, 0.000000000000000000, 0.000000000000000000 ) ) ;
#70 = CARTESIAN_POINT ( 'NONE',  ( -1.836909530733570325E-16, 20.14213562373095101, 1.233309363218649163E-15 ) ) ;
#71 = FACE_OUTER_BOUND ( 'NONE', #135, .T. ) ;
#72 = CIRCLE ( 'NONE', #124, 14.54061261317760056 ) ;
#73 = ORIENTED_EDGE ( 'NONE', *, *, #143, .F. ) ;
#74 = EDGE_CURVE ( 'NONE', #1, #98, #92, .T. ) ;
#75 = EDGE_CURVE ( 'NONE', #5, #159, #72, .T. ) ;
#76 = AXIS2_PLACEMENT_3D ( 'NONE', #139, #193, #244 ) ;
#77 = DIRECTION ( 'NONE',  ( 1.000000000000000000, 0.000000000000000000, 0.000000000000000000 ) ) ;
#78 = ORIENTED_EDGE ( 'NONE', *, *, #243, .T. ) ;
#79 = FACE_OUTER_BOUND ( 'NONE', #149, .T. ) ;
#80 = ORIENTED_EDGE ( 'NONE', *, *, #202, .F. ) ;
#81 = CARTESIAN_POINT ( 'NONE',  ( -17.50000000000000000, 3.214591678783739810E-16, -5.250000000000000000 ) ) ;
#82 = EDGE_LOOP ( 'NONE', ( #126, #25, #123, #31 ) ) ;
#83 = LINE ( 'NONE', #213, #22 ) ;
#84 = ORIENTED_EDGE ( 'NONE', *, *, #160, .F. ) ;
#85 = ORIENTED_EDGE ( 'NONE', *, *, #88, .T. ) ;
#86 = DIRECTION ( 'NONE',  ( 1.000000000000000000, -7.677663078301340064E-32, 1.253898945459000212E-15 ) ) ;
#87 = DIRECTION ( 'NONE',  ( 0.000000000000000000, -1.000000000000000000, -6.123031769111888756E-17 ) ) ;
#88 = EDGE_CURVE ( 'NONE', #234, #151, #91, .T. ) ;
#89 = LINE ( 'NONE', #267, #194 ) ;
#90 = CARTESIAN_POINT ( 'NONE',  ( -17.50000000000000000, 5.816880180656290004E-16, -9.500000000000000000 ) ) ;
#91 = LINE ( 'NONE', #167, #330 ) ;
#92 = CIRCLE ( 'NONE', #223, 4.000000000000000000 ) ;
#93 = PRESENTATION_STYLE_ASSIGNMENT (( #299 ) ) ;
#94 = DIRECTION ( 'NONE',  ( 0.000000000000000000, -6.123031769111888756E-17, 1.000000000000000000 ) ) ;
#95 = LINE ( 'NONE', #274, #175 ) ;
#96 = VERTEX_POINT ( 'NONE', #269 ) ;
#97 = AXIS2_PLACEMENT_3D ( 'NONE', #331, #55, #200 ) ;
#98 = VERTEX_POINT ( 'NONE', #298 ) ;
#99 = CARTESIAN_POINT ( 'NONE',  ( -17.50000000000000000, 6.000000000000000000, -1.000000000000000000 ) ) ;
#100 = ORIENTED_EDGE ( 'NONE', *, *, #137, .F. ) ;
#101 = CIRCLE ( 'NONE', #292, 14.54061261317760056 ) ;
#102 = AXIS2_PLACEMENT_3D ( 'NONE', #35, #311, #215 ) ;
#103 = DIRECTION ( 'NONE',  ( 0.000000000000000000, 6.123031769111888756E-17, -1.000000000000000000 ) ) ;
#104 = ORIENTED_EDGE ( 'NONE', *, *, #322, .T. ) ;
#105 = LINE ( 'NONE', #196, #114 ) ;
#106 = PLANE ( 'NONE',  #173 ) ;
#107 = CARTESIAN_POINT ( 'NONE',  ( 2.967307350387110354, 6.000000000000000000, 1.479853642672799952 ) ) ;
#108 = DIRECTION ( 'NONE',  ( 1.000000000000000000, 0.000000000000000000, 0.000000000000000000 ) ) ;
#109 = FACE_OUTER_BOUND ( 'NONE', #325, .T. ) ;
#110 = UNCERTAINTY_MEASURE_WITH_UNIT (LENGTH_MEASURE( 1.000000000000000082E-05 ), #271, 'distance_accuracy_value', 'NONE');
#111 = EDGE_CURVE ( 'NONE', #98, #1, #49, .T. ) ;
#112 = VERTEX_POINT ( 'NONE', #39 ) ;
#113 = LINE ( 'NONE', #68, #12 ) ;
#114 = VECTOR ( 'NONE', #77, 1000.000000000000000 ) ;
#115 = PRODUCT_DEFINITION_FORMATION_WITH_SPECIFIED_SOURCE ( 'ANY', '', #157, .NOT_KNOWN. ) ;
#116 = DIRECTION ( 'NONE',  ( 1.000000000000000000, 0.000000000000000000, 0.000000000000000000 ) ) ;
#117 = CARTESIAN_POINT ( 'NONE',  ( -2.967307350387120124, 9.061190867721510382E-17, -1.479853642672799952 ) ) ;
#118 = FILL_AREA_STYLE ('',( #293 ) ) ;
#119 = LINE ( 'NONE', #3, #259 ) ;
#120 = DIRECTION ( 'NONE',  ( 0.000000000000000000, 1.000000000000000000, 6.123031769111888756E-17 ) ) ;
#121 = EDGE_CURVE ( 'NONE', #273, #147, #141, .T. ) ;
#122 = ORIENTED_EDGE ( 'NONE', *, *, #170, .T. ) ;
#123 = ORIENTED_EDGE ( 'NONE', *, *, #74, .T. ) ;
#124 = AXIS2_PLACEMENT_3D ( 'NONE', #320, #87, #190 ) ;
#125 = ORIENTED_EDGE ( 'NONE', *, *, #143, .T. ) ;
#126 = ORIENTED_EDGE ( 'NONE', *, *, #121, .F. ) ;
#127 = FACE_OUTER_BOUND ( 'NONE', #54, .T. ) ;
#128 = EDGE_LOOP ( 'NONE', ( #308, #188, #29, #122 ) ) ;
#129 = CYLINDRICAL_SURFACE ( 'NONE', #209, 14.54061261317760056 ) ;
#130 = ORIENTED_EDGE ( 'NONE', *, *, #179, .T. ) ;
#131 = FACE_OUTER_BOUND ( 'NONE', #82, .T. ) ;
#132 = ORIENTED_EDGE ( 'NONE', *, *, #74, .F. ) ;
#133 = DIRECTION ( 'NONE',  ( 0.000000000000000000, 1.000000000000000000, 6.123031769111888756E-17 ) ) ;
#134 = VERTEX_POINT ( 'NONE', #42 ) ;
#135 = EDGE_LOOP ( 'NONE', ( #183, #276, #80, #260, #130, #285 ) ) ;
#136 =( GEOMETRIC_REPRESENTATION_CONTEXT ( 3 ) GLOBAL_UNCERTAINTY_ASSIGNED_CONTEXT ( ( #110 ) ) GLOBAL_UNIT_ASSIGNED_CONTEXT ( ( #271, #220, #165 ) ) REPRESENTATION_CONTEXT ( 'NONE', 'WORKASPACE' ) );
#137 = EDGE_CURVE ( 'NONE', #61, #96, #113, .T. ) ;
#138 = CARTESIAN_POINT ( 'NONE',  ( -17.50000000000000000, 6.000000000000000000, -9.500000000000000000 ) ) ;
#139 = CARTESIAN_POINT ( 'NONE',  ( -1.836909530733570325E-16, 6.000000000000000000, 3.673819061467133254E-16 ) ) ;
#140 = SURFACE_STYLE_FILL_AREA ( #118 ) ;
#141 = CIRCLE ( 'NONE', #76, 4.000000000000000000 ) ;
#142 = DIRECTION ( 'NONE',  ( -1.000000000000000000, 0.000000000000000000, 0.000000000000000000 ) ) ;
#143 = EDGE_CURVE ( 'NONE', #134, #5, #216, .T. ) ;
#144 = LINE ( 'NONE', #324, #184 ) ;
#145 = VERTEX_POINT ( 'NONE', #247 ) ;
#146 = COLOUR_RGB ( '',0.7921568627450980005, 0.8196078431372548767, 0.9333333333333333481 ) ;
#147 = VERTEX_POINT ( 'NONE', #318 ) ;
#148 = CARTESIAN_POINT ( 'NONE',  ( 2.967307350387110354, -9.061190867721520243E-17, 1.479853642672799952 ) ) ;
#149 = EDGE_LOOP ( 'NONE', ( #242, #156, #264, #162 ) ) ;
#150 = CARTESIAN_POINT ( 'NONE',  ( 17.50000000000000000, -5.816880180656290004E-16, 9.500000000000000000 ) ) ;
#151 = VERTEX_POINT ( 'NONE', #15 ) ;
#152 = DIRECTION ( 'NONE',  ( -1.000000000000000000, 0.000000000000000000, 0.000000000000000000 ) ) ;
#153 = VERTEX_POINT ( 'NONE', #197 ) ;
#154 = AXIS2_PLACEMENT_3D ( 'NONE', #174, #24, #103 ) ;
#155 = CARTESIAN_POINT ( 'NONE',  ( 17.50000000000000000, 6.000000000000000000, 1.000000000000000000 ) ) ;
#156 = ORIENTED_EDGE ( 'NONE', *, *, #243, .F. ) ;
#157 = PRODUCT ( 'T101-008', 'T101-008', '', ( #62 ) ) ;
#158 = CARTESIAN_POINT ( 'NONE',  ( 17.50000000000000000, -3.214591678783739810E-16, 5.250000000000000000 ) ) ;
#159 = VERTEX_POINT ( 'NONE', #99 ) ;
#160 = EDGE_CURVE ( 'NONE', #147, #273, #240, .T. ) ;
#161 = SHAPE_DEFINITION_REPRESENTATION ( #212, #268 ) ;
#162 = ORIENTED_EDGE ( 'NONE', *, *, #221, .T. ) ;
#163 = VECTOR ( 'NONE', #307, 1000.000000000000000 ) ;
#164 = DIRECTION ( 'NONE',  ( 0.000000000000000000, -6.123031769111888756E-17, 1.000000000000000000 ) ) ;
#165 =( NAMED_UNIT ( * ) SI_UNIT ( $, .STERADIAN. ) SOLID_ANGLE_UNIT ( ) );
#166 =( LENGTH_UNIT ( ) NAMED_UNIT ( * ) SI_UNIT ( .MILLI., .METRE. ) );
#167 = CARTESIAN_POINT ( 'NONE',  ( 12.50000000000000000, 5.816880180656290004E-16, -9.500000000000000000 ) ) ;
#168 = AXIS2_PLACEMENT_3D ( 'NONE', #64, #266, #222 ) ;
#169 = DIRECTION ( 'NONE',  ( 0.000000000000000000, 1.000000000000000000, 6.123031769111888756E-17 ) ) ;
#170 = EDGE_CURVE ( 'NONE', #56, #5, #144, .T. ) ;
#171 = ADVANCED_FACE ( 'NONE', ( #278 ), #30, .T. ) ;
#172 = DIRECTION ( 'NONE',  ( 0.000000000000000000, 0.000000000000000000, 1.000000000000000000 ) ) ;
#173 = AXIS2_PLACEMENT_3D ( 'NONE', #33, #239, #8 ) ;
#174 = CARTESIAN_POINT ( 'NONE',  ( -1.110223024625159893E-15, 1.087668936092689915E-31, -1.776356839400249676E-15 ) ) ;
#175 = VECTOR ( 'NONE', #152, 1000.000000000000000 ) ;
#176 = ORIENTED_EDGE ( 'NONE', *, *, #2, .T. ) ;
#177 = CARTESIAN_POINT ( 'NONE',  ( 12.50000000000000000, 5.816880180656290004E-16, -9.500000000000000000 ) ) ;
#178 = ORIENTED_EDGE ( 'NONE', *, *, #230, .T. ) ;
#179 = EDGE_CURVE ( 'NONE', #145, #153, #305, .T. ) ;
#180 = LINE ( 'NONE', #204, #163 ) ;
#181 = CARTESIAN_POINT ( 'NONE',  ( 3.061677665855842504E-16, -2.449212707644755502E-16, 4.000000000000000000 ) ) ;
#182 = DIRECTION ( 'NONE',  ( 0.000000000000000000, -1.000000000000000000, -6.123031769111888756E-17 ) ) ;
#183 = ORIENTED_EDGE ( 'NONE', *, *, #52, .F. ) ;
#184 = VECTOR ( 'NONE', #58, 1000.000000000000000 ) ;
#185 = APPLICATION_CONTEXT ( 'automotive_design' ) ;
#186 = CARTESIAN_POINT ( 'NONE',  ( 2.967307350387110354, -9.061190867721520243E-17, 1.479853642672799952 ) ) ;
#187 = DIRECTION ( 'NONE',  ( 1.000000000000000000, 0.000000000000000000, 0.000000000000000000 ) ) ;
#188 = ORIENTED_EDGE ( 'NONE', *, *, #51, .F. ) ;
#189 = FACE_OUTER_BOUND ( 'NONE', #228, .T. ) ;
#190 = DIRECTION ( 'NONE',  ( 1.000000000000000000, 0.000000000000000000, 0.000000000000000000 ) ) ;
#191 = DIRECTION ( 'NONE',  ( 0.000000000000000000, 1.000000000000000000, 6.123031769111888756E-17 ) ) ;
#192 = SURFACE_SIDE_STYLE ('',( #140 ) ) ;
#193 = DIRECTION ( 'NONE',  ( -0.000000000000000000, -1.000000000000000000, -6.123031769111888756E-17 ) ) ;
#194 = VECTOR ( 'NONE', #18, 1000.000000000000000 ) ;
#195 = PRODUCT_DEFINITION ( 'UNKNOWN', '', #115, #6 ) ;
#196 = CARTESIAN_POINT ( 'NONE',  ( 12.50000000000000000, 6.000000000000000000, -9.500000000000000000 ) ) ;
#197 = CARTESIAN_POINT ( 'NONE',  ( 17.50000000000000000, -5.816880180656290004E-16, 9.500000000000000000 ) ) ;
#198 = EDGE_LOOP ( 'NONE', ( #203, #279 ) ) ;
#199 =( GEOMETRIC_REPRESENTATION_CONTEXT ( 3 ) GLOBAL_UNCERTAINTY_ASSIGNED_CONTEXT ( ( #282 ) ) GLOBAL_UNIT_ASSIGNED_CONTEXT ( ( #166, #9, #218 ) ) REPRESENTATION_CONTEXT ( 'NONE', 'WORKASPACE' ) );
#200 = DIRECTION ( 'NONE',  ( 1.000000000000000000, 0.000000000000000000, 0.000000000000000000 ) ) ;
#201 = VECTOR ( 'NONE', #256, 1000.000000000000000 ) ;
#202 = EDGE_CURVE ( 'NONE', #234, #61, #95, .T. ) ;
#203 = ORIENTED_EDGE ( 'NONE', *, *, #160, .T. ) ;
#204 = CARTESIAN_POINT ( 'NONE',  ( -1.836909530733570325E-16, 20.14213562373095101, -3.999999999999999112 ) ) ;
#205 = ORIENTED_EDGE ( 'NONE', *, *, #111, .T. ) ;
#206 = CARTESIAN_POINT ( 'NONE',  ( 17.50000000000000000, -6.123031769111859174E-17, 1.000000000000000000 ) ) ;
#207 = ORIENTED_EDGE ( 'NONE', *, *, #51, .T. ) ;
#208 = DIRECTION ( 'NONE',  ( 0.000000000000000000, -1.000000000000000000, -6.123031769111888756E-17 ) ) ;
#209 = AXIS2_PLACEMENT_3D ( 'NONE', #148, #120, #225 ) ;
#210 = DIRECTION ( 'NONE',  ( 0.000000000000000000, 0.000000000000000000, -1.000000000000000000 ) ) ;
#211 = ORIENTED_EDGE ( 'NONE', *, *, #111, .F. ) ;
#212 = PRODUCT_DEFINITION_SHAPE ( 'NONE', 'NONE',  #195 ) ;
#213 = CARTESIAN_POINT ( 'NONE',  ( -17.50000000000000000, 5.816880180656290004E-16, -9.500000000000000000 ) ) ;
#214 = LINE ( 'NONE', #297, #63 ) ;
#215 = DIRECTION ( 'NONE',  ( 1.000000000000000000, 0.000000000000000000, 0.000000000000000000 ) ) ;
#216 = LINE ( 'NONE', #270, #263 ) ;
#217 = VECTOR ( 'NONE', #191, 1000.000000000000000 ) ;
#218 =( NAMED_UNIT ( * ) SI_UNIT ( $, .STERADIAN. ) SOLID_ANGLE_UNIT ( ) );
#219 = CARTESIAN_POINT ( 'NONE',  ( -2.500000000000000000, 5.816880180656290004E-16, -9.500000000000000000 ) ) ;
#220 =( NAMED_UNIT ( * ) PLANE_ANGLE_UNIT ( ) SI_UNIT ( $, .RADIAN. ) );
#221 = EDGE_CURVE ( 'NONE', #145, #315, #119, .T. ) ;
#222 = DIRECTION ( 'NONE',  ( 0.000000000000000000, 6.123031769111888756E-17, -1.000000000000000000 ) ) ;
#223 = AXIS2_PLACEMENT_3D ( 'NONE', #319, #66, #316 ) ;
#224 = CYLINDRICAL_SURFACE ( 'NONE', #284, 4.000000000000000000 ) ;
#225 = DIRECTION ( 'NONE',  ( 1.000000000000000000, 0.000000000000000000, 0.000000000000000000 ) ) ;
#226 = STYLED_ITEM ( 'NONE', ( #93 ), #43 ) ;
#227 = ORIENTED_EDGE ( 'NONE', *, *, #88, .F. ) ;
#228 = EDGE_LOOP ( 'NONE', ( #257, #84, #328, #205 ) ) ;
#229 = DIRECTION ( 'NONE',  ( 0.000000000000000000, -1.000000000000000000, -6.123031769111888756E-17 ) ) ;
#230 = EDGE_CURVE ( 'NONE', #96, #151, #105, .T. ) ;
#231 = ADVANCED_FACE ( 'NONE', ( #131 ), #224, .F. ) ;
#232 = FACE_BOUND ( 'NONE', #34, .T. ) ;
#233 = AXIS2_PLACEMENT_3D ( 'NONE', #219, #246, #69 ) ;
#234 = VERTEX_POINT ( 'NONE', #177 ) ;
#235 = PLANE ( 'NONE',  #327 ) ;
#236 = LINE ( 'NONE', #138, #57 ) ;
#237 = CYLINDRICAL_SURFACE ( 'NONE', #41, 4.000000000000000000 ) ;
#238 = ORIENTED_EDGE ( 'NONE', *, *, #221, .F. ) ;
#239 = DIRECTION ( 'NONE',  ( 0.000000000000000000, 1.000000000000000000, 6.123031769111888756E-17 ) ) ;
#240 = CIRCLE ( 'NONE', #249, 4.000000000000000000 ) ;
#241 = CARTESIAN_POINT ( 'NONE',  ( -1.836909530733570325E-16, 20.14213562373095101, 1.233309363218649163E-15 ) ) ;
#242 = ORIENTED_EDGE ( 'NONE', *, *, #253, .T. ) ;
#243 = EDGE_CURVE ( 'NONE', #153, #134, #283, .T. ) ;
#244 = DIRECTION ( 'NONE',  ( 0.000000000000000000, 0.000000000000000000, 1.000000000000000000 ) ) ;
#245 = AXIS2_PLACEMENT_3D ( 'NONE', #303, #94, #229 ) ;
#246 = DIRECTION ( 'NONE',  ( 0.000000000000000000, 6.123031769111888756E-17, -1.000000000000000000 ) ) ;
#247 = CARTESIAN_POINT ( 'NONE',  ( 17.50000000000000000, -6.123031769111859174E-17, 1.000000000000000000 ) ) ;
#248 = PLANE ( 'NONE',  #233 ) ;
#249 = AXIS2_PLACEMENT_3D ( 'NONE', #258, #53, #172 ) ;
#250 = DIRECTION ( 'NONE',  ( -1.253898945459000212E-15, -6.123031769111888756E-17, 1.000000000000000000 ) ) ;
#251 = ORIENTED_EDGE ( 'NONE', *, *, #137, .T. ) ;
#252 = CIRCLE ( 'NONE', #36, 14.54061261317760056 ) ;
#253 = EDGE_CURVE ( 'NONE', #315, #134, #255, .T. ) ;
#254 = ADVANCED_FACE ( 'NONE', ( #321 ), #309, .T. ) ;
#255 = LINE ( 'NONE', #155, #304 ) ;
#256 = DIRECTION ( 'NONE',  ( 0.000000000000000000, 1.000000000000000000, 6.123031769111888756E-17 ) ) ;
#257 = ORIENTED_EDGE ( 'NONE', *, *, #45, .F. ) ;
#258 = CARTESIAN_POINT ( 'NONE',  ( -1.836909530733570325E-16, 6.000000000000000000, 3.673819061467133254E-16 ) ) ;
#259 = VECTOR ( 'NONE', #261, 1000.000000000000000 ) ;
#260 = ORIENTED_EDGE ( 'NONE', *, *, #322, .F. ) ;
#261 = DIRECTION ( 'NONE',  ( 0.000000000000000000, 1.000000000000000000, 6.123031769111888756E-17 ) ) ;
#262 = CARTESIAN_POINT ( 'NONE',  ( -12.50000000000000000, 6.000000000000000000, 9.500000000000000000 ) ) ;
#263 = VECTOR ( 'NONE', #142, 1000.000000000000000 ) ;
#264 = ORIENTED_EDGE ( 'NONE', *, *, #179, .F. ) ;
#265 = ADVANCED_FACE ( 'NONE', ( #127 ), #235, .T. ) ;
#266 = DIRECTION ( 'NONE',  ( 0.000000000000000000, -1.000000000000000000, -6.123031769111888756E-17 ) ) ;
#267 = CARTESIAN_POINT ( 'NONE',  ( 3.061677665855842504E-16, 20.14213562373095101, 4.000000000000000888 ) ) ;
#268 = ADVANCED_BREP_SHAPE_REPRESENTATION ( 'T101-008', ( #43, #102 ), #199 ) ;
#269 = CARTESIAN_POINT ( 'NONE',  ( -17.50000000000000000, 6.000000000000000000, -9.500000000000000000 ) ) ;
#270 = CARTESIAN_POINT ( 'NONE',  ( 17.50000000000000000, 6.000000000000000000, 9.500000000000000000 ) ) ;
#271 =( LENGTH_UNIT ( ) NAMED_UNIT ( * ) SI_UNIT ( .MILLI., .METRE. ) );
#272 = DIRECTION ( 'NONE',  ( 0.000000000000000000, 0.000000000000000000, 1.000000000000000000 ) ) ;
#273 = VERTEX_POINT ( 'NONE', #300 ) ;
#274 = CARTESIAN_POINT ( 'NONE',  ( 12.50000000000000000, 5.816880180656290004E-16, -9.500000000000000000 ) ) ;
#275 = ORIENTED_EDGE ( 'NONE', *, *, #253, .F. ) ;
#276 = ORIENTED_EDGE ( 'NONE', *, *, #323, .F. ) ;
#277 = CIRCLE ( 'NONE', #7, 14.54061261317760056 ) ;
#278 = FACE_OUTER_BOUND ( 'NONE', #128, .T. ) ;
#279 = ORIENTED_EDGE ( 'NONE', *, *, #121, .T. ) ;
#280 = PLANE ( 'NONE',  #47 ) ;
#281 = ORIENTED_EDGE ( 'NONE', *, *, #27, .F. ) ;
#282 = UNCERTAINTY_MEASURE_WITH_UNIT (LENGTH_MEASURE( 1.000000000000000082E-05 ), #166, 'distance_accuracy_value', 'NONE');
#283 = LINE ( 'NONE', #150, #201 ) ;
#284 = AXIS2_PLACEMENT_3D ( 'NONE', #70, #182, #26 ) ;
#285 = ORIENTED_EDGE ( 'NONE', *, *, #65, .T. ) ;
#286 = APPLICATION_PROTOCOL_DEFINITION ( 'draft international standard', 'automotive_design', 1998, #294 ) ;
#287 = ORIENTED_EDGE ( 'NONE', *, *, #202, .T. ) ;
#288 = DIRECTION ( 'NONE',  ( -1.253898945459000212E-15, 0.000000000000000000, 1.000000000000000000 ) ) ;
#289 = ORIENTED_EDGE ( 'NONE', *, *, #170, .F. ) ;
#290 = ADVANCED_FACE ( 'NONE', ( #46 ), #129, .T. ) ;
#291 = ADVANCED_FACE ( 'NONE', ( #71, #232 ), #329, .F. ) ;
#292 = AXIS2_PLACEMENT_3D ( 'NONE', #186, #133, #108 ) ;
#293 = FILL_AREA_STYLE_COLOUR ( '', #146 ) ;
#294 = APPLICATION_CONTEXT ( 'automotive_design' ) ;
#295 = CARTESIAN_POINT ( 'NONE',  ( 17.50000000000000000, 6.000000000000000000, 1.000000000000000000 ) ) ;
#296 = DIRECTION ( 'NONE',  ( -1.000000000000000000, 0.000000000000000000, 0.000000000000000000 ) ) ;
#297 = CARTESIAN_POINT ( 'NONE',  ( 17.50000000000000000, -5.816880180656290004E-16, 9.500000000000000000 ) ) ;
#298 = CARTESIAN_POINT ( 'NONE',  ( -1.836909530733570325E-16, 2.449212707644755502E-16, -4.000000000000000000 ) ) ;
#299 = SURFACE_STYLE_USAGE ( .BOTH. , #192 ) ;
#300 = CARTESIAN_POINT ( 'NONE',  ( 3.061677665855842504E-16, 6.000000000000000000, 4.000000000000000000 ) ) ;
#301 = EDGE_CURVE ( 'NONE', #147, #98, #180, .T. ) ;
#302 = ADVANCED_FACE ( 'NONE', ( #79 ), #280, .T. ) ;
#303 = CARTESIAN_POINT ( 'NONE',  ( 2.500000000000000000, -5.816880180656290004E-16, 9.500000000000000000 ) ) ;
#304 = VECTOR ( 'NONE', #20, 1000.000000000000000 ) ;
#305 = LINE ( 'NONE', #206, #37 ) ;
#306 = ORIENTED_EDGE ( 'NONE', *, *, #65, .F. ) ;
#307 = DIRECTION ( 'NONE',  ( 0.000000000000000000, -1.000000000000000000, -6.123031769111888756E-17 ) ) ;
#308 = ORIENTED_EDGE ( 'NONE', *, *, #75, .T. ) ;
#309 = PLANE ( 'NONE',  #245 ) ;
#310 = EDGE_LOOP ( 'NONE', ( #21, #59, #73, #275, #281, #312 ) ) ;
#311 = DIRECTION ( 'NONE',  ( 0.000000000000000000, 0.000000000000000000, 1.000000000000000000 ) ) ;
#312 = ORIENTED_EDGE ( 'NONE', *, *, #230, .F. ) ;
#313 = APPLICATION_PROTOCOL_DEFINITION ( 'draft international standard', 'automotive_design', 1998, #185 ) ;
#314 = ADVANCED_FACE ( 'NONE', ( #189 ), #237, .F. ) ;
#315 = VERTEX_POINT ( 'NONE', #295 ) ;
#316 = DIRECTION ( 'NONE',  ( 0.000000000000000000, 6.123031769111888756E-17, -1.000000000000000000 ) ) ;
#317 = CLOSED_SHELL ( 'NONE', ( #231, #314, #291, #16, #171, #254, #302, #290, #28, #265 ) ) ;
#318 = CARTESIAN_POINT ( 'NONE',  ( -1.836909530733570325E-16, 6.000000000000000000, -4.000000000000000000 ) ) ;
#319 = CARTESIAN_POINT ( 'NONE',  ( -1.836909530733570325E-16, 0.000000000000000000, 0.000000000000000000 ) ) ;
#320 = CARTESIAN_POINT ( 'NONE',  ( -2.967307350387120124, 6.000000000000000000, -1.479853642672799952 ) ) ;
#321 = FACE_OUTER_BOUND ( 'NONE', #48, .T. ) ;
#322 = EDGE_CURVE ( 'NONE', #145, #234, #101, .T. ) ;
#323 = EDGE_CURVE ( 'NONE', #61, #112, #83, .T. ) ;
#324 = CARTESIAN_POINT ( 'NONE',  ( -12.50000000000000000, -5.816880180656290004E-16, 9.500000000000000000 ) ) ;
#325 = EDGE_LOOP ( 'NONE', ( #178, #227, #287, #251 ) ) ;
#326 = ORIENTED_EDGE ( 'NONE', *, *, #27, .T. ) ;
#327 = AXIS2_PLACEMENT_3D ( 'NONE', #81, #50, #272 ) ;
#328 = ORIENTED_EDGE ( 'NONE', *, *, #301, .T. ) ;
#329 = PLANE ( 'NONE',  #154 ) ;
#330 = VECTOR ( 'NONE', #11, 1000.000000000000000 ) ;
#331 = CARTESIAN_POINT ( 'NONE',  ( -2.967307350387120124, 9.061190867721510382E-17, -1.479853642672799952 ) ) ;
ENDSEC;
END-ISO-10303-21;
