ISO-10303-21;
HEADER;
FILE_DESCRIPTION (( 'STEP AP214' ),
    '1' );
FILE_NAME ('M6 Channel Nut.STEP',
    '2025-02-11T15:54:47',
    ( '' ),
    ( '' ),
    'SwSTEP 2.0',
    'SolidWorks 2024',
    '' );
FILE_SCHEMA (( 'AUTOMOTIVE_DESIGN' ));
ENDSEC;

DATA;
#1 = CARTESIAN_POINT ( 'NONE',  ( -17.50000000000000000, 5.816880180656290004E-16, -9.500000000000000000 ) ) ;
#2 = ORIENTED_EDGE ( 'NONE', *, *, #203, .F. ) ;
#3 = CARTESIAN_POINT ( 'NONE',  ( -17.50000000000000000, 6.123031769111889989E-17, -1.000000000000000000 ) ) ;
#4 = VERTEX_POINT ( 'NONE', #243 ) ;
#5 =( NAMED_UNIT ( * ) PLANE_ANGLE_UNIT ( ) SI_UNIT ( $, .RADIAN. ) );
#6 = DIRECTION ( 'NONE',  ( 0.000000000000000000, 6.123031769111888756E-17, -1.000000000000000000 ) ) ;
#7 = VERTEX_POINT ( 'NONE', #215 ) ;
#8 = FACE_OUTER_BOUND ( 'NONE', #135, .T. ) ;
#9 = AXIS2_PLACEMENT_3D ( 'NONE', #265, #267, #67 ) ;
#10 = DIRECTION ( 'NONE',  ( 1.000000000000000000, 0.000000000000000000, 0.000000000000000000 ) ) ;
#11 = DIRECTION ( 'NONE',  ( 0.000000000000000000, 0.000000000000000000, 1.000000000000000000 ) ) ;
#12 = DIRECTION ( 'NONE',  ( 0.000000000000000000, -1.000000000000000000, -6.123031769111888756E-17 ) ) ;
#13 = EDGE_CURVE ( 'NONE', #246, #92, #69, .T. ) ;
#14 = DIRECTION ( 'NONE',  ( 0.000000000000000000, -1.000000000000000000, -6.123031769111888756E-17 ) ) ;
#15 = AXIS2_PLACEMENT_3D ( 'NONE', #232, #314, #230 ) ;
#16 = ORIENTED_EDGE ( 'NONE', *, *, #319, .F. ) ;
#17 = LINE ( 'NONE', #221, #286 ) ;
#18 = LINE ( 'NONE', #202, #190 ) ;
#19 = SURFACE_SIDE_STYLE ('',( #176 ) ) ;
#20 = VECTOR ( 'NONE', #24, 1000.000000000000000 ) ;
#21 = DIRECTION ( 'NONE',  ( 0.000000000000000000, -1.000000000000000000, -6.123031769111888756E-17 ) ) ;
#22 = EDGE_CURVE ( 'NONE', #109, #92, #43, .T. ) ;
#23 = CARTESIAN_POINT ( 'NONE',  ( -2.967307350387120124, 9.061190867721510382E-17, -1.479853642672799952 ) ) ;
#24 = DIRECTION ( 'NONE',  ( 1.000000000000000000, 0.000000000000000000, 0.000000000000000000 ) ) ;
#25 = PRODUCT_DEFINITION_FORMATION_WITH_SPECIFIED_SOURCE ( 'ANY', '', #168, .NOT_KNOWN. ) ;
#26 =( NAMED_UNIT ( * ) SI_UNIT ( $, .STERADIAN. ) SOLID_ANGLE_UNIT ( ) );
#27 = FACE_BOUND ( 'NONE', #65, .T. ) ;
#28 = ORIENTED_EDGE ( 'NONE', *, *, #70, .T. ) ;
#29 = DIRECTION ( 'NONE',  ( 0.000000000000000000, 6.123031769111888756E-17, -1.000000000000000000 ) ) ;
#30 = EDGE_LOOP ( 'NONE', ( #237, #285 ) ) ;
#31 = VERTEX_POINT ( 'NONE', #266 ) ;
#32 = EDGE_CURVE ( 'NONE', #31, #159, #17, .T. ) ;
#33 = CARTESIAN_POINT ( 'NONE',  ( -17.50000000000000000, 3.214591678783739810E-16, -5.250000000000000000 ) ) ;
#34 = ORIENTED_EDGE ( 'NONE', *, *, #81, .F. ) ;
#35 = ORIENTED_EDGE ( 'NONE', *, *, #32, .F. ) ;
#36 = ORIENTED_EDGE ( 'NONE', *, *, #22, .T. ) ;
#37 = VERTEX_POINT ( 'NONE', #38 ) ;
#38 = CARTESIAN_POINT ( 'NONE',  ( 1.837030866708489790E-16, 6.000000000000000000, 3.000000000000000888 ) ) ;
#39 = CIRCLE ( 'NONE', #228, 14.54061261317760056 ) ;
#40 = DIRECTION ( 'NONE',  ( -1.000000000000000000, 0.000000000000000000, 0.000000000000000000 ) ) ;
#41 = CARTESIAN_POINT ( 'NONE',  ( -2.967307350387120124, 9.061190867721510382E-17, -1.479853642672799952 ) ) ;
#42 = FILL_AREA_STYLE_COLOUR ( '', #132 ) ;
#43 = CIRCLE ( 'NONE', #9, 3.000000000000000444 ) ;
#44 = ADVANCED_FACE ( 'NONE', ( #173 ), #196, .F. ) ;
#45 = EDGE_CURVE ( 'NONE', #163, #295, #57, .T. ) ;
#46 = DIRECTION ( 'NONE',  ( -1.253898945459000212E-15, 0.000000000000000000, 1.000000000000000000 ) ) ;
#47 = DIRECTION ( 'NONE',  ( -1.000000000000000000, 0.000000000000000000, 0.000000000000000000 ) ) ;
#48 = DIRECTION ( 'NONE',  ( 0.000000000000000000, 6.123031769111888756E-17, -1.000000000000000000 ) ) ;
#49 = AXIS2_PLACEMENT_3D ( 'NONE', #244, #12, #138 ) ;
#50 = LINE ( 'NONE', #182, #241 ) ;
#51 = ORIENTED_EDGE ( 'NONE', *, *, #195, .T. ) ;
#52 = CARTESIAN_POINT ( 'NONE',  ( -17.50000000000000000, 6.000000000000000000, -1.000000000000000000 ) ) ;
#53 = EDGE_LOOP ( 'NONE', ( #212, #102, #288, #296 ) ) ;
#54 = DIRECTION ( 'NONE',  ( 0.000000000000000000, -1.000000000000000000, -6.123031769111888756E-17 ) ) ;
#55 = ORIENTED_EDGE ( 'NONE', *, *, #32, .T. ) ;
#56 = EDGE_CURVE ( 'NONE', #259, #264, #197, .T. ) ;
#57 = CIRCLE ( 'NONE', #165, 14.54061261317760056 ) ;
#58 = CARTESIAN_POINT ( 'NONE',  ( 17.50000000000000000, 6.000000000000000000, 1.000000000000000000 ) ) ;
#59 = ORIENTED_EDGE ( 'NONE', *, *, #117, .T. ) ;
#60 = ORIENTED_EDGE ( 'NONE', *, *, #126, .T. ) ;
#61 = CARTESIAN_POINT ( 'NONE',  ( 0.000000000000000000, 0.000000000000000000, 0.000000000000000000 ) ) ;
#62 = ORIENTED_EDGE ( 'NONE', *, *, #45, .F. ) ;
#63 = EDGE_CURVE ( 'NONE', #246, #37, #297, .T. ) ;
#64 = AXIS2_PLACEMENT_3D ( 'NONE', #258, #101, #54 ) ;
#65 = EDGE_LOOP ( 'NONE', ( #162, #231 ) ) ;
#66 = ORIENTED_EDGE ( 'NONE', *, *, #195, .F. ) ;
#67 = DIRECTION ( 'NONE',  ( 0.000000000000000000, 6.123031769111888756E-17, -1.000000000000000000 ) ) ;
#68 = VECTOR ( 'NONE', #322, 1000.000000000000000 ) ;
#69 = LINE ( 'NONE', #169, #330 ) ;
#70 = EDGE_CURVE ( 'NONE', #4, #171, #247, .T. ) ;
#71 = FACE_OUTER_BOUND ( 'NONE', #86, .T. ) ;
#72 = CARTESIAN_POINT ( 'NONE',  ( 1.837030866708489790E-16, 20.14213562373095101, 3.000000000000001776 ) ) ;
#73 = DIRECTION ( 'NONE',  ( 1.000000000000000000, 0.000000000000000000, 0.000000000000000000 ) ) ;
#74 = CARTESIAN_POINT ( 'NONE',  ( -1.836909530733570325E-16, 0.000000000000000000, 0.000000000000000000 ) ) ;
#75 = FACE_OUTER_BOUND ( 'NONE', #161, .T. ) ;
#76 = DIRECTION ( 'NONE',  ( -1.253898945459000212E-15, -6.123031769111888756E-17, 1.000000000000000000 ) ) ;
#77 = ORIENTED_EDGE ( 'NONE', *, *, #178, .F. ) ;
#78 = VECTOR ( 'NONE', #276, 1000.000000000000000 ) ;
#79 = CYLINDRICAL_SURFACE ( 'NONE', #291, 14.54061261317760056 ) ;
#80 = ORIENTED_EDGE ( 'NONE', *, *, #91, .F. ) ;
#81 = EDGE_CURVE ( 'NONE', #31, #259, #294, .T. ) ;
#82 =( LENGTH_UNIT ( ) NAMED_UNIT ( * ) SI_UNIT ( .MILLI., .METRE. ) );
#83 = ORIENTED_EDGE ( 'NONE', *, *, #81, .T. ) ;
#84 = CIRCLE ( 'NONE', #183, 14.54061261317760056 ) ;
#85 = FACE_OUTER_BOUND ( 'NONE', #188, .T. ) ;
#86 = EDGE_LOOP ( 'NONE', ( #234, #133, #36, #308 ) ) ;
#87 = CARTESIAN_POINT ( 'NONE',  ( 12.50000000000000000, 5.816880180656290004E-16, -9.500000000000000000 ) ) ;
#88 = DIRECTION ( 'NONE',  ( 1.000000000000000000, 0.000000000000000000, 0.000000000000000000 ) ) ;
#89 = AXIS2_PLACEMENT_3D ( 'NONE', #269, #146, #120 ) ;
#90 = DIRECTION ( 'NONE',  ( -0.000000000000000000, -1.000000000000000000, -6.123031769111888756E-17 ) ) ;
#91 = EDGE_CURVE ( 'NONE', #316, #191, #317, .T. ) ;
#92 = VERTEX_POINT ( 'NONE', #199 ) ;
#93 = CARTESIAN_POINT ( 'NONE',  ( 2.967307350387110354, 6.000000000000000000, 1.479853642672799952 ) ) ;
#94 = AXIS2_PLACEMENT_3D ( 'NONE', #200, #90, #11 ) ;
#95 = DIRECTION ( 'NONE',  ( 0.000000000000000000, -1.000000000000000000, -6.123031769111888756E-17 ) ) ;
#96 = ADVANCED_FACE ( 'NONE', ( #119 ), #220, .T. ) ;
#97 = FACE_OUTER_BOUND ( 'NONE', #105, .T. ) ;
#98 = CARTESIAN_POINT ( 'NONE',  ( 17.50000000000000000, 6.000000000000000000, 9.500000000000000000 ) ) ;
#99 = VECTOR ( 'NONE', #115, 1000.000000000000000 ) ;
#100 = DIRECTION ( 'NONE',  ( 1.000000000000000000, 0.000000000000000000, 0.000000000000000000 ) ) ;
#101 = DIRECTION ( 'NONE',  ( 0.000000000000000000, -6.123031769111888756E-17, 1.000000000000000000 ) ) ;
#102 = ORIENTED_EDGE ( 'NONE', *, *, #63, .F. ) ;
#103 = EDGE_CURVE ( 'NONE', #171, #257, #249, .T. ) ;
#104 = PRESENTATION_LAYER_ASSIGNMENT (  '', '', ( #112 ) ) ;
#105 = EDGE_LOOP ( 'NONE', ( #311, #16, #137, #271 ) ) ;
#106 = ADVANCED_FACE ( 'NONE', ( #71 ), #331, .F. ) ;
#107 = EDGE_LOOP ( 'NONE', ( #140, #282, #51, #280 ) ) ;
#108 = DIRECTION ( 'NONE',  ( 1.000000000000000000, 0.000000000000000000, 0.000000000000000000 ) ) ;
#109 = VERTEX_POINT ( 'NONE', #254 ) ;
#110 = PLANE ( 'NONE',  #158 ) ;
#111 = EDGE_LOOP ( 'NONE', ( #242, #315, #214, #155 ) ) ;
#112 = STYLED_ITEM ( 'NONE', ( #272 ), #189 ) ;
#113 = ORIENTED_EDGE ( 'NONE', *, *, #152, .F. ) ;
#114 = ORIENTED_EDGE ( 'NONE', *, *, #45, .T. ) ;
#115 = DIRECTION ( 'NONE',  ( 0.000000000000000000, 1.000000000000000000, 6.123031769111888756E-17 ) ) ;
#116 = CIRCLE ( 'NONE', #201, 3.000000000000000444 ) ;
#117 = EDGE_CURVE ( 'NONE', #4, #295, #18, .T. ) ;
#118 = AXIS2_PLACEMENT_3D ( 'NONE', #61, #240, #10 ) ;
#119 = FACE_OUTER_BOUND ( 'NONE', #111, .T. ) ;
#120 = DIRECTION ( 'NONE',  ( -1.000000000000000000, 0.000000000000000000, 0.000000000000000000 ) ) ;
#121 = CARTESIAN_POINT ( 'NONE',  ( 17.50000000000000000, -3.214591678783739810E-16, 5.250000000000000000 ) ) ;
#122 = CLOSED_SHELL ( 'NONE', ( #106, #44, #303, #328, #192, #293, #164, #248, #96, #260 ) ) ;
#123 = VECTOR ( 'NONE', #125, 1000.000000000000000 ) ;
#124 = CARTESIAN_POINT ( 'NONE',  ( -17.50000000000000000, 6.000000000000000000, -9.500000000000000000 ) ) ;
#125 = DIRECTION ( 'NONE',  ( 0.000000000000000000, -6.123031769111888756E-17, 1.000000000000000000 ) ) ;
#126 = EDGE_CURVE ( 'NONE', #171, #163, #299, .T. ) ;
#127 = CARTESIAN_POINT ( 'NONE',  ( 17.50000000000000000, 6.000000000000000000, 9.500000000000000000 ) ) ;
#128 = LINE ( 'NONE', #58, #270 ) ;
#129 = LINE ( 'NONE', #3, #223 ) ;
#130 = ORIENTED_EDGE ( 'NONE', *, *, #184, .F. ) ;
#131 = FACE_OUTER_BOUND ( 'NONE', #167, .T. ) ;
#132 = COLOUR_RGB ( '',0.7921568627450980005, 0.8196078431372548767, 0.9333333333333333481 ) ;
#133 = ORIENTED_EDGE ( 'NONE', *, *, #142, .T. ) ;
#134 = DIRECTION ( 'NONE',  ( 0.000000000000000000, 0.000000000000000000, 1.000000000000000000 ) ) ;
#135 = EDGE_LOOP ( 'NONE', ( #194, #287, #34, #55 ) ) ;
#136 = LINE ( 'NONE', #1, #301 ) ;
#137 = ORIENTED_EDGE ( 'NONE', *, *, #178, .T. ) ;
#138 = DIRECTION ( 'NONE',  ( 0.000000000000000000, 0.000000000000000000, -1.000000000000000000 ) ) ;
#139 = AXIS2_PLACEMENT_3D ( 'NONE', #33, #186, #134 ) ;
#140 = ORIENTED_EDGE ( 'NONE', *, *, #91, .T. ) ;
#141 = ORIENTED_EDGE ( 'NONE', *, *, #70, .F. ) ;
#142 = EDGE_CURVE ( 'NONE', #37, #109, #226, .T. ) ;
#143 = CARTESIAN_POINT ( 'NONE',  ( 17.50000000000000000, -5.816880180656290004E-16, 9.500000000000000000 ) ) ;
#144 = AXIS2_PLACEMENT_3D ( 'NONE', #233, #236, #6 ) ;
#145 = APPLICATION_PROTOCOL_DEFINITION ( 'draft international standard', 'automotive_design', 1998, #151 ) ;
#146 = DIRECTION ( 'NONE',  ( 0.000000000000000000, 6.123031769111888756E-17, -1.000000000000000000 ) ) ;
#147 =( GEOMETRIC_REPRESENTATION_CONTEXT ( 3 ) GLOBAL_UNCERTAINTY_ASSIGNED_CONTEXT ( ( #275 ) ) GLOBAL_UNIT_ASSIGNED_CONTEXT ( ( #204, #326, #149 ) ) REPRESENTATION_CONTEXT ( 'NONE', 'WORKASPACE' ) );
#148 = PRODUCT_DEFINITION_CONTEXT ( 'detailed design', #151, 'design' ) ;
#149 =( NAMED_UNIT ( * ) SI_UNIT ( $, .STERADIAN. ) SOLID_ANGLE_UNIT ( ) );
#150 = CARTESIAN_POINT ( 'NONE',  ( 12.50000000000000000, 6.000000000000000000, -9.500000000000000000 ) ) ;
#151 = APPLICATION_CONTEXT ( 'automotive_design' ) ;
#152 = EDGE_CURVE ( 'NONE', #191, #163, #206, .T. ) ;
#153 = CARTESIAN_POINT ( 'NONE',  ( -1.836909530733570325E-16, 20.14213562373095101, 1.233309363218649163E-15 ) ) ;
#154 = FACE_OUTER_BOUND ( 'NONE', #217, .T. ) ;
#155 = ORIENTED_EDGE ( 'NONE', *, *, #268, .T. ) ;
#156 = DIRECTION ( 'NONE',  ( -1.253898945459000212E-15, -6.123031769111888756E-17, 1.000000000000000000 ) ) ;
#157 = CARTESIAN_POINT ( 'NONE',  ( -12.50000000000000000, -5.816880180656290004E-16, 9.500000000000000000 ) ) ;
#158 = AXIS2_PLACEMENT_3D ( 'NONE', #261, #210, #48 ) ;
#159 = VERTEX_POINT ( 'NONE', #127 ) ;
#160 = DIRECTION ( 'NONE',  ( 0.000000000000000000, 1.000000000000000000, 6.123031769111888756E-17 ) ) ;
#161 = EDGE_LOOP ( 'NONE', ( #313, #35, #185, #59 ) ) ;
#162 = ORIENTED_EDGE ( 'NONE', *, *, #211, .F. ) ;
#163 = VERTEX_POINT ( 'NONE', #229 ) ;
#164 = ADVANCED_FACE ( 'NONE', ( #75 ), #205, .T. ) ;
#165 = AXIS2_PLACEMENT_3D ( 'NONE', #93, #14, #88 ) ;
#166 =( GEOMETRIC_REPRESENTATION_CONTEXT ( 3 ) GLOBAL_UNCERTAINTY_ASSIGNED_CONTEXT ( ( #304 ) ) GLOBAL_UNIT_ASSIGNED_CONTEXT ( ( #82, #5, #26 ) ) REPRESENTATION_CONTEXT ( 'NONE', 'WORKASPACE' ) );
#167 = EDGE_LOOP ( 'NONE', ( #80, #130, #2, #187, #62, #113 ) ) ;
#168 = PRODUCT ( 'M6 Channel Nut', 'M6 Channel Nut', '', ( #193 ) ) ;
#169 = CARTESIAN_POINT ( 'NONE',  ( -1.836909530733570325E-16, 20.14213562373095101, -2.999999999999999112 ) ) ;
#170 = SHAPE_DEFINITION_REPRESENTATION ( #290, #174 ) ;
#171 = VERTEX_POINT ( 'NONE', #252 ) ;
#172 = AXIS2_PLACEMENT_3D ( 'NONE', #321, #292, #198 ) ;
#173 = FACE_OUTER_BOUND ( 'NONE', #53, .T. ) ;
#174 = ADVANCED_BREP_SHAPE_REPRESENTATION ( 'M6 Channel Nut', ( #189, #118 ), #166 ) ;
#175 = DIRECTION ( 'NONE',  ( 0.000000000000000000, 1.000000000000000000, 6.123031769111888756E-17 ) ) ;
#176 = SURFACE_STYLE_FILL_AREA ( #327 ) ;
#177 = LINE ( 'NONE', #274, #123 ) ;
#178 = EDGE_CURVE ( 'NONE', #7, #259, #39, .T. ) ;
#179 = DIRECTION ( 'NONE',  ( 0.000000000000000000, 0.000000000000000000, -1.000000000000000000 ) ) ;
#180 = APPLICATION_CONTEXT ( 'automotive_design' ) ;
#181 = DIRECTION ( 'NONE',  ( 0.000000000000000000, 1.000000000000000000, 6.123031769111888756E-17 ) ) ;
#182 = CARTESIAN_POINT ( 'NONE',  ( 17.50000000000000000, -6.123031769111859174E-17, 1.000000000000000000 ) ) ;
#183 = AXIS2_PLACEMENT_3D ( 'NONE', #253, #21, #100 ) ;
#184 = EDGE_CURVE ( 'NONE', #264, #316, #84, .T. ) ;
#185 = ORIENTED_EDGE ( 'NONE', *, *, #235, .F. ) ;
#186 = DIRECTION ( 'NONE',  ( -1.000000000000000000, 0.000000000000000000, 0.000000000000000000 ) ) ;
#187 = ORIENTED_EDGE ( 'NONE', *, *, #225, .F. ) ;
#188 = EDGE_LOOP ( 'NONE', ( #114, #263, #28, #60 ) ) ;
#189 = MANIFOLD_SOLID_BREP ( 'Boss-Extrude1', #122 ) ;
#190 = VECTOR ( 'NONE', #181, 1000.000000000000000 ) ;
#191 = VERTEX_POINT ( 'NONE', #124 ) ;
#192 = ADVANCED_FACE ( 'NONE', ( #97 ), #300, .T. ) ;
#193 = PRODUCT_CONTEXT ( 'NONE', #180, 'mechanical' ) ;
#194 = ORIENTED_EDGE ( 'NONE', *, *, #203, .T. ) ;
#195 = EDGE_CURVE ( 'NONE', #257, #7, #177, .T. ) ;
#196 = CYLINDRICAL_SURFACE ( 'NONE', #49, 3.000000000000000444 ) ;
#197 = LINE ( 'NONE', #323, #99 ) ;
#198 = DIRECTION ( 'NONE',  ( 1.000000000000000000, 0.000000000000000000, 0.000000000000000000 ) ) ;
#199 = CARTESIAN_POINT ( 'NONE',  ( -1.836909530733570325E-16, 1.836909530733566873E-16, -3.000000000000000444 ) ) ;
#200 = CARTESIAN_POINT ( 'NONE',  ( -1.836909530733570325E-16, 6.000000000000000000, 3.673819061467133254E-16 ) ) ;
#201 = AXIS2_PLACEMENT_3D ( 'NONE', #74, #209, #29 ) ;
#202 = CARTESIAN_POINT ( 'NONE',  ( 17.50000000000000000, -6.123031769111859174E-17, 1.000000000000000000 ) ) ;
#203 = EDGE_CURVE ( 'NONE', #159, #264, #227, .T. ) ;
#204 =( LENGTH_UNIT ( ) NAMED_UNIT ( * ) SI_UNIT ( .MILLI., .METRE. ) );
#205 = PLANE ( 'NONE',  #219 ) ;
#206 = LINE ( 'NONE', #150, #20 ) ;
#207 = DIRECTION ( 'NONE',  ( 0.000000000000000000, 1.000000000000000000, 6.123031769111888756E-17 ) ) ;
#208 = ORIENTED_EDGE ( 'NONE', *, *, #103, .F. ) ;
#209 = DIRECTION ( 'NONE',  ( 0.000000000000000000, -1.000000000000000000, -6.123031769111888756E-17 ) ) ;
#210 = DIRECTION ( 'NONE',  ( 0.000000000000000000, 1.000000000000000000, 6.123031769111888756E-17 ) ) ;
#211 = EDGE_CURVE ( 'NONE', #92, #109, #116, .T. ) ;
#212 = ORIENTED_EDGE ( 'NONE', *, *, #142, .F. ) ;
#213 = PLANE ( 'NONE',  #144 ) ;
#214 = ORIENTED_EDGE ( 'NONE', *, *, #103, .T. ) ;
#215 = CARTESIAN_POINT ( 'NONE',  ( -17.50000000000000000, 6.123031769111889989E-17, -1.000000000000000000 ) ) ;
#216 = PRODUCT_RELATED_PRODUCT_CATEGORY ( 'part', '', ( #168 ) ) ;
#217 = EDGE_LOOP ( 'NONE', ( #77, #66, #208, #141, #239, #83 ) ) ;
#218 = DIRECTION ( 'NONE',  ( 0.000000000000000000, 1.000000000000000000, 6.123031769111888756E-17 ) ) ;
#219 = AXIS2_PLACEMENT_3D ( 'NONE', #121, #298, #46 ) ;
#220 = PLANE ( 'NONE',  #89 ) ;
#221 = CARTESIAN_POINT ( 'NONE',  ( 17.50000000000000000, -5.816880180656290004E-16, 9.500000000000000000 ) ) ;
#222 = VECTOR ( 'NONE', #40, 1000.000000000000000 ) ;
#223 = VECTOR ( 'NONE', #281, 1000.000000000000000 ) ;
#224 = DIRECTION ( 'NONE',  ( 1.000000000000000000, 0.000000000000000000, 0.000000000000000000 ) ) ;
#225 = EDGE_CURVE ( 'NONE', #295, #159, #128, .T. ) ;
#226 = LINE ( 'NONE', #72, #255 ) ;
#227 = LINE ( 'NONE', #98, #309 ) ;
#228 = AXIS2_PLACEMENT_3D ( 'NONE', #41, #324, #224 ) ;
#229 = CARTESIAN_POINT ( 'NONE',  ( 12.50000000000000000, 6.000000000000000000, -9.500000000000000000 ) ) ;
#230 = DIRECTION ( 'NONE',  ( 0.000000000000000000, 0.000000000000000000, 1.000000000000000000 ) ) ;
#231 = ORIENTED_EDGE ( 'NONE', *, *, #22, .F. ) ;
#232 = CARTESIAN_POINT ( 'NONE',  ( -1.836909530733570325E-16, 6.000000000000000000, 3.673819061467133254E-16 ) ) ;
#233 = CARTESIAN_POINT ( 'NONE',  ( -1.110223024625159893E-15, 6.000000000000000000, -1.408974933253540048E-15 ) ) ;
#234 = ORIENTED_EDGE ( 'NONE', *, *, #306, .F. ) ;
#235 = EDGE_CURVE ( 'NONE', #4, #31, #50, .T. ) ;
#236 = DIRECTION ( 'NONE',  ( 0.000000000000000000, 1.000000000000000000, 6.123031769111888756E-17 ) ) ;
#237 = ORIENTED_EDGE ( 'NONE', *, *, #63, .T. ) ;
#238 = CARTESIAN_POINT ( 'NONE',  ( -17.50000000000000000, 5.816880180656290004E-16, -9.500000000000000000 ) ) ;
#239 = ORIENTED_EDGE ( 'NONE', *, *, #235, .T. ) ;
#240 = DIRECTION ( 'NONE',  ( 0.000000000000000000, 0.000000000000000000, 1.000000000000000000 ) ) ;
#241 = VECTOR ( 'NONE', #76, 1000.000000000000000 ) ;
#242 = ORIENTED_EDGE ( 'NONE', *, *, #152, .T. ) ;
#243 = CARTESIAN_POINT ( 'NONE',  ( 17.50000000000000000, -6.123031769111859174E-17, 1.000000000000000000 ) ) ;
#244 = CARTESIAN_POINT ( 'NONE',  ( -1.836909530733570325E-16, 20.14213562373095101, 1.233309363218649163E-15 ) ) ;
#245 = APPLICATION_PROTOCOL_DEFINITION ( 'draft international standard', 'automotive_design', 1998, #180 ) ;
#246 = VERTEX_POINT ( 'NONE', #310 ) ;
#247 = CIRCLE ( 'NONE', #172, 14.54061261317760056 ) ;
#248 = ADVANCED_FACE ( 'NONE', ( #85 ), #79, .T. ) ;
#249 = LINE ( 'NONE', #87, #251 ) ;
#250 = CARTESIAN_POINT ( 'NONE',  ( 12.50000000000000000, 5.816880180656290004E-16, -9.500000000000000000 ) ) ;
#251 = VECTOR ( 'NONE', #47, 1000.000000000000000 ) ;
#252 = CARTESIAN_POINT ( 'NONE',  ( 12.50000000000000000, 5.816880180656290004E-16, -9.500000000000000000 ) ) ;
#253 = CARTESIAN_POINT ( 'NONE',  ( -2.967307350387120124, 6.000000000000000000, -1.479853642672799952 ) ) ;
#254 = CARTESIAN_POINT ( 'NONE',  ( 1.837030866708489790E-16, -1.836909530733566873E-16, 3.000000000000000444 ) ) ;
#255 = VECTOR ( 'NONE', #95, 1000.000000000000000 ) ;
#256 = CARTESIAN_POINT ( 'NONE',  ( 2.967307350387110354, -9.061190867721520243E-17, 1.479853642672799952 ) ) ;
#257 = VERTEX_POINT ( 'NONE', #238 ) ;
#258 = CARTESIAN_POINT ( 'NONE',  ( 2.500000000000000000, -5.816880180656290004E-16, 9.500000000000000000 ) ) ;
#259 = VERTEX_POINT ( 'NONE', #157 ) ;
#260 = ADVANCED_FACE ( 'NONE', ( #262 ), #307, .T. ) ;
#261 = CARTESIAN_POINT ( 'NONE',  ( -1.110223024625159893E-15, 1.087668936092689915E-31, -1.776356839400249676E-15 ) ) ;
#262 = FACE_OUTER_BOUND ( 'NONE', #107, .T. ) ;
#263 = ORIENTED_EDGE ( 'NONE', *, *, #117, .F. ) ;
#264 = VERTEX_POINT ( 'NONE', #277 ) ;
#265 = CARTESIAN_POINT ( 'NONE',  ( -1.836909530733570325E-16, 0.000000000000000000, 0.000000000000000000 ) ) ;
#266 = CARTESIAN_POINT ( 'NONE',  ( 17.50000000000000000, -5.816880180656290004E-16, 9.500000000000000000 ) ) ;
#267 = DIRECTION ( 'NONE',  ( 0.000000000000000000, -1.000000000000000000, -6.123031769111888756E-17 ) ) ;
#268 = EDGE_CURVE ( 'NONE', #257, #191, #136, .T. ) ;
#269 = CARTESIAN_POINT ( 'NONE',  ( -2.500000000000000000, 5.816880180656290004E-16, -9.500000000000000000 ) ) ;
#270 = VECTOR ( 'NONE', #156, 1000.000000000000000 ) ;
#271 = ORIENTED_EDGE ( 'NONE', *, *, #56, .T. ) ;
#272 = PRESENTATION_STYLE_ASSIGNMENT (( #329 ) ) ;
#273 = AXIS2_PLACEMENT_3D ( 'NONE', #153, #305, #179 ) ;
#274 = CARTESIAN_POINT ( 'NONE',  ( -17.50000000000000000, 5.816880180656290004E-16, -9.500000000000000000 ) ) ;
#275 = UNCERTAINTY_MEASURE_WITH_UNIT (LENGTH_MEASURE( 1.000000000000000082E-05 ), #204, 'distance_accuracy_value', 'NONE');
#276 = DIRECTION ( 'NONE',  ( 0.000000000000000000, 1.000000000000000000, 6.123031769111888756E-17 ) ) ;
#277 = CARTESIAN_POINT ( 'NONE',  ( -12.50000000000000000, 6.000000000000000000, 9.500000000000000000 ) ) ;
#278 = AXIS2_PLACEMENT_3D ( 'NONE', #23, #175, #73 ) ;
#279 = PLANE ( 'NONE',  #64 ) ;
#280 = ORIENTED_EDGE ( 'NONE', *, *, #319, .T. ) ;
#281 = DIRECTION ( 'NONE',  ( 0.000000000000000000, 1.000000000000000000, 6.123031769111888756E-17 ) ) ;
#282 = ORIENTED_EDGE ( 'NONE', *, *, #268, .F. ) ;
#283 = PRODUCT_DEFINITION ( 'UNKNOWN', '', #25, #148 ) ;
#284 = CARTESIAN_POINT ( 'NONE',  ( 17.50000000000000000, 6.000000000000000000, 1.000000000000000000 ) ) ;
#285 = ORIENTED_EDGE ( 'NONE', *, *, #306, .T. ) ;
#286 = VECTOR ( 'NONE', #218, 1000.000000000000000 ) ;
#287 = ORIENTED_EDGE ( 'NONE', *, *, #56, .F. ) ;
#288 = ORIENTED_EDGE ( 'NONE', *, *, #13, .T. ) ;
#289 = CARTESIAN_POINT ( 'NONE',  ( -17.50000000000000000, 6.000000000000000000, -9.500000000000000000 ) ) ;
#290 = PRODUCT_DEFINITION_SHAPE ( 'NONE', 'NONE',  #283 ) ;
#291 = AXIS2_PLACEMENT_3D ( 'NONE', #256, #160, #108 ) ;
#292 = DIRECTION ( 'NONE',  ( 0.000000000000000000, 1.000000000000000000, 6.123031769111888756E-17 ) ) ;
#293 = ADVANCED_FACE ( 'NONE', ( #8 ), #279, .T. ) ;
#294 = LINE ( 'NONE', #143, #222 ) ;
#295 = VERTEX_POINT ( 'NONE', #284 ) ;
#296 = ORIENTED_EDGE ( 'NONE', *, *, #211, .T. ) ;
#297 = CIRCLE ( 'NONE', #94, 3.000000000000000444 ) ;
#298 = DIRECTION ( 'NONE',  ( 1.000000000000000000, -7.677663078301340064E-32, 1.253898945459000212E-15 ) ) ;
#299 = LINE ( 'NONE', #250, #78 ) ;
#300 = CYLINDRICAL_SURFACE ( 'NONE', #278, 14.54061261317760056 ) ;
#301 = VECTOR ( 'NONE', #207, 1000.000000000000000 ) ;
#302 = DIRECTION ( 'NONE',  ( -1.000000000000000000, 0.000000000000000000, 0.000000000000000000 ) ) ;
#303 = ADVANCED_FACE ( 'NONE', ( #154, #27 ), #110, .F. ) ;
#304 = UNCERTAINTY_MEASURE_WITH_UNIT (LENGTH_MEASURE( 1.000000000000000082E-05 ), #82, 'distance_accuracy_value', 'NONE');
#305 = DIRECTION ( 'NONE',  ( 0.000000000000000000, -1.000000000000000000, -6.123031769111888756E-17 ) ) ;
#306 = EDGE_CURVE ( 'NONE', #37, #246, #325, .T. ) ;
#307 = PLANE ( 'NONE',  #139 ) ;
#308 = ORIENTED_EDGE ( 'NONE', *, *, #13, .F. ) ;
#309 = VECTOR ( 'NONE', #302, 1000.000000000000000 ) ;
#310 = CARTESIAN_POINT ( 'NONE',  ( -1.836909530733570325E-16, 6.000000000000000000, -3.000000000000000000 ) ) ;
#311 = ORIENTED_EDGE ( 'NONE', *, *, #184, .T. ) ;
#312 = FACE_BOUND ( 'NONE', #30, .T. ) ;
#313 = ORIENTED_EDGE ( 'NONE', *, *, #225, .T. ) ;
#314 = DIRECTION ( 'NONE',  ( -0.000000000000000000, -1.000000000000000000, -6.123031769111888756E-17 ) ) ;
#315 = ORIENTED_EDGE ( 'NONE', *, *, #126, .F. ) ;
#316 = VERTEX_POINT ( 'NONE', #52 ) ;
#317 = LINE ( 'NONE', #289, #68 ) ;
#318 = DIRECTION ( 'NONE',  ( 0.000000000000000000, -1.000000000000000000, -6.123031769111888756E-17 ) ) ;
#319 = EDGE_CURVE ( 'NONE', #7, #316, #129, .T. ) ;
#320 = MECHANICAL_DESIGN_GEOMETRIC_PRESENTATION_REPRESENTATION (  '', ( #112 ), #147 ) ;
#321 = CARTESIAN_POINT ( 'NONE',  ( 2.967307350387110354, -9.061190867721520243E-17, 1.479853642672799952 ) ) ;
#322 = DIRECTION ( 'NONE',  ( 0.000000000000000000, 6.123031769111888756E-17, -1.000000000000000000 ) ) ;
#323 = CARTESIAN_POINT ( 'NONE',  ( -12.50000000000000000, -5.816880180656290004E-16, 9.500000000000000000 ) ) ;
#324 = DIRECTION ( 'NONE',  ( 0.000000000000000000, 1.000000000000000000, 6.123031769111888756E-17 ) ) ;
#325 = CIRCLE ( 'NONE', #15, 3.000000000000000444 ) ;
#326 =( NAMED_UNIT ( * ) PLANE_ANGLE_UNIT ( ) SI_UNIT ( $, .RADIAN. ) );
#327 = FILL_AREA_STYLE ('',( #42 ) ) ;
#328 = ADVANCED_FACE ( 'NONE', ( #131, #312 ), #213, .T. ) ;
#329 = SURFACE_STYLE_USAGE ( .BOTH. , #19 ) ;
#330 = VECTOR ( 'NONE', #318, 1000.000000000000000 ) ;
#331 = CYLINDRICAL_SURFACE ( 'NONE', #273, 3.000000000000000444 ) ;
ENDSEC;
END-ISO-10303-21;
